Make your own free website on Tripod.com

 Artist: Drain sth
 Song: Black
 Album: Freaks of nature (1999)
 By: Jari Levisto (levari@yeayea.com)


 A Song that sounds lot like some Black sabbath tune!
 for me it does at least, dunno 'bout you.

 The intro line for bass or synth. is something like this.
     C    (Eb)  (D)
 E||----------------|----------------||
 B||----------------|----------------||
 G||*---------------|---------------*||
 D||*------1-----0--|---------------*||
 A||-1-3-1-----3---3|-1-3-1-3---1-3--||
 E||----------------|----------------||


 This might not be the correct way to play the chorus
     C   (Eb)  (D)    (C)  (Bb)(C)
 F||----------------|----------------||
 C||*---------------|---------------*||
 G||*------8----7---|--5-----1/3-3--*||
 C||-0-0-0----0-----|0-----0---------||