Make your own free website on Tripod.com
 
 
 Artist: Drain sth
 Song: Enter my mind
 Album: Freaks of nature (1999)
 By: Jari Levisto (Levari@yeayea.com)

 Intro figure
      (C)
 G||-------------------|| 
 D||*-----------------*||
 A||*-1h3-3-1-3-3-1-3-*||
 E||-------------------||

 Bridge (bend Eb randomly, half-bends)
     F5        C5         Eb5    C5   4xTimes
 E||--------------------|------------------||
 B||--------------------|------------------||
 G||*-------------------|-----------------*||
 D||*-10-----x--5-------|-8----x--5-------*||
 A||--8------x--3-------|-6----x--3--------||
 E||-(8)----(x)(3)------|(6)--(x)(3)-------||

 Chorus gtr. fill

 E||--------------------||
 B||-6b8-6b8-6b8-6------||
 G||----------------3---||
 D||--------------------||
 A||--------------------||
 E||--------------------||
 
 I'm not certain if any of these is the correcrt way, but they sound quite
 nice. If you come up with a better one let me know.
 
 Chorus
 A||------------------||     
 C||*----------------*||
 G||*-0--3p0-0-1p0-00*||
 C||--0--3p0-0-1p0-00-||
      C (Eb)    (F)             C
Eb||-------------------|| Eb||------------------||
Bb||*-----------------*|| Bb||*----------------*||
 F||*-2---------------*||  F||*-2------0h1p0---*||
 C||--0--3p0-3h5-3p0---||  C||--0--3p0-------3--||